Rock On Live Your Dreams This is the title track of the movie Rock On!! It is purely on electric and hence I had not put up the chords here but due to so many request, I thought to include acoustic as well electric guitar based songs from now on. Enjoy! And ya Rock On!


Intro Riff

A5 A5 A5~Bb5 G5 G5 C5

(A5)
Dil kya kehta hai mera kya main bataaon
Tum ye samjhoge shaayad main paagal hoon.

Play Intro Riff again 4 times

(A5)
Dil kya kehta hai mera kya main bataaon
Tum ye samjhoge shaayad main paagal hoon.

(A5)
Dil karta hai tv tower pe main chad jaoon
Chilla chilla ke main ye sabse keh doon.(E,G,E-A5)

(A5) Rock On
Hai ye (G5)waqt ka ishaara
(A5) Rock On
Har lam(F5)ha Pukaara (F5-G5)
(A5) Rock On
Yuheen (G5)Dekhta hai kya tu
(D5/F#) Rock On
Zinda(F5)gi milegi na dubaraaa....

Intro Riff x 4

(A5)dil karta hai sadkon par
zor se gaoon
sab apne apne ghar ki khidki kholen
phir main aise josheelay geet sunaoon
mere geeton ko sunke sab ye bolen(E,G,E-A5)

(A5) Rock ON
Hai ye (G5)waqt ka ishaara
(A5) Rock On
Har lam(F5)ha Pukaara (F5-G5)
(A5) Rock On
Yuheen (G5)Dekhta hai kya tu
(D5/F#) Rock On
Zinda(F5)gi milegi na dubaraaa....

Interlude

----------------------------------
----------------------------------
----------------------------------
----------------------------------
-----------------3-3-3p2----------
-2-3-5---5-5-5-5---------5-3-5----

----------------------------------
----------------------------------
----------------------------------
-----5-7p5---5-7p5---5-7p5--------
-3s7-------7-------7-------7s3----
----------------------------------

----------------------------------
----------------------------------
----------------------------------
-----5-7p5---5-7p5---5-7p5--------
-5s7-------7-------7-------7s3----
----------------------------------

----------------------------------------------------
----------------------------------------------------
-------------5---------------------5----------------
-------5-5-7---7-5---7-5-5h7-----5---7p5---5-7------
-5s--7-------------7---------7-----------7----------
----------------------------------------------------

-----5----------------------------------------------
-8b9---8-5---5--------------------------------------
-----------7---8-7-5---5-7-7-7b8r----7p5---5--------
---------------------7-------------------7---7-7----
----------------------------------------------------
----------------------------------------------------

-----5----------------------------
-8---5-----------8----------------
-7b8---7-5-------7b8-7-5----------
-----------7-5-7---------7-5-7----
----------------------------------
----------------------------------

--------------------------------------------------
--------------------------------------------------
-7b8r7-7-5---5-7-5---5----------------------------
-----------7-------7---7-5---5--------------------
---------------------------7---7-5---5-7-5---5----
-----------------------------------8-------8------

------------------
------------------
-----5------------
-5S7---7-5-7-4----
------------------
------------------

(D)jaise jee(F)ne ko dil (D7/F#)chahe
(G)jee (D)waise tu
(D)meri toh (F)hai bas ye (D7/F#)raaye ki

(G)apne jitne bhi armaan
hain poore karle tu

Intro Riff x 4

(A5) Rock ON
Hai ye (G5)waqt ka ishaara
(A5) Rock On
Har lam(F5)ha Pukaara (F5-G5)
(A5) Rock On
Yuheen (G5)Dekhta hai kya tu
(D5/F#) Rock On
Zinda(F5)gi milegi na dubaraaa....

(A5) Rock ON
Hai ye (G5)waqt ka ishaara
(A5) Rock On
Har lam(F5)ha Pukaara (F5-G5)

(A5) Rock On
Yuheen (G5)Dekhta hai kya tu
(D5/F#) Rock On
Zinda(F5)gi milegi na dubaraaa....

Intro Riff x 8

Liked it? Rate the song: 1 Star2 Stars3 Stars4 Stars5 Stars (16 votes, average: 3.94 out of 5)

Get more such songs directly in your Inbox

* indicates required