Dil Ko, RHTDM

One of the most romantic songs from a famous and super hit movie Rehna Hai Tere Dil Mein, it packs a lot of satisfaction for a guitar lover with very little effort on their part. Instead of trying to sing the song (it doesn’t make sense with tabs anyway), try to hum the song while playing the tabs. That feels good and will give you an excellent rhythm to follow. You should get the hang of it in no time.

MUKHDA
dil ko.. tumse pyaar hua.. pehli baar hua.. tumse pyaar hua

E------------------------------------------------------------
B---0-1------3-1-0---0-------1-0---0----------0--------------
G-2----------------2-------------2---2----------2-0----------
D---------------------------------------------------3-2------
A------------------------------------------------------------
E------------------------------------------------------------

  main bhi  aashiq yaar hua.. pehli baar hua tumse pyar hua
E------------------------------------------------------------
B---0-1------3-1-0---0-------1-0---0----------0--------------
G-2----------------2-------------2---2----------2-0----------
D---------------------------------------------------3-2------
A------------------------------------------------------------
E------------------------------------------------------------


   chayi hai...   betaabi...   meri jaan kaho main kya karoon
E-0-------0------0-------0--------0--------0-1-0-----0-------
B---1-3-3---1-3-----1-3-3---1-3-----1-3----------3-1---------
G------------------------------------------------------------
D------------------------------------------------------------
A------------------------------------------------------------
E------------------------------------------------------------


   chayi hai...   betaabi...   meri jaan kaho main kya karoon
E-0-------0------0-------0--------0--------0-1-0-------------
B---1-3-3---1-3----1-3-3---1-3------1-3----------3-1-0-------
G------------------------------------------------------------
D------------------------------------------------------------
A------------------------------------------------------------
E------------------------------------------------------------

Back to first lines...

Guitar Piece

E------------------------------------------------------------
B------------------------------------------------------------
G-----------------------------------3-3p2-----2-3-5----------
D---------0-2-3-2-0-----2h3-3---2-3-------3-2----------------
A---0-2-3-----------3-2--------------------------------------
E-0----------------------------------------------------------


E-------3-5-5-7-7--------7------7---5-----5--3---------------
B-1-3-3--------------------11-9-------9-8------7-6-3-1-------
G------------------------------------------------------------
D------------------------------------------------------------
A------------------------------------------------------------
E------------------------------------------------------------

Antra


Oh, kho gaya main khayalon me ab neend bhi nahi aankhon mein
E-----1-1-1-1-1-1-0----------------0-1-1-1-1-1-1-0-----------
B-------------------3------------3-----------------3---------
G------------------------------------------------------------
D------------------------------------------------------------
A------------------------------------------------------------
E------------------------------------------------------------


  karvatein bas badalta hu.. ab jagta hu main raaton mein
E-----1-1-1-1-1-1-0-------------0-1-1-1-1-1-1-0--------------
B-------------------3---------3-----------------3------------
G------------------------------------------------------------
D------------------------------------------------------------
A------------------------------------------------------------
E------------------------------------------------------------


   ab doori na sehni, har lamha kehta hai
E-------0-------0----------1-0----------------
B---1-3---1-3-3--------1-3-----3-1-0----------
G---------------------------------------------
D---------------------------------------------
A---------------------------------------------
E---------------------------------------------


   na jane haal mera aisa kyu rehta hai...
E-------0-------0----------1-0----------------

B---1-3---1-3-3--------1-3-----3-1-0----------
G---------------------------------------------
D---------------------------------------------
A---------------------------------------------
E---------------------------------------------


   main deewana tera ban gaya jaane jaana
E---0-3-5-3-5-3-5-3-0-------------------------
B---------------------3-3-1-3-----------------
G-----------------------------2---------------
D---------------------------------------------
A---------------------------------------------
E---------------------------------------------


   main fasana tera ban gaya jaane jaana
E---0-3-5-3-5-3-5-3-0-------------------------
B---------------------3-3-1-3-----------------
G-----------------------------2---------------
D---------------------------------------------
A---------------------------------------------
E---------------------------------------------


   haseena gori gori, churaya chori chori
E-----------0---0---------------0---0---------
B-----1-3-3---3-----------1-3-3---3-----------
G---2-------------------2---------------------
D---------------------------------------------
A---------------------------------------------
E---------------------------------------------


   churaya dil chori chori chori chori chori
E-----------0-----0-----0-----0-----0-----0---
B-----1-3-3-----3-----3-----3-----3-----3-----
G---2-----------------------------------------
D---------------------------------------------
A---------------------------------------------
E---------------------------------------------


Mukhda Again
Liked it? Rate the song: 1 Star2 Stars3 Stars4 Stars5 Stars (34 votes, average: 3.91 out of 5)

Get more such songs directly in your Inbox

* indicates required