7-Khoon-Maaf

Here’s a small quick acoustic song from the Priyanka Chopra starrer 7 Khoon Maaf. The chords are pretty easy if you know barre chords. The song is in the key of Gm. It has virtually no strumming pattern at all. The only fast muted strumming pattern that comes in the song is as below:

| 1&2& |
| DUUD |
The ‘U’ (UP) strokes should be muted.

The chords used in the song are:

So here it goes!

----------3-----3-----
------3-----3-----3---
--------3-----3-------   x 4
----5-----------------
--5-------------------
----------------------
        - Gm -

----------3-----3-------------------3-----3---------------
------3-----3-----3-------------5-----5-----5-------------
--------3-----3-------------------5-----5-----------------
----5-------------------------5---------------------------
--5-------------------------3-----------------------------
----------------------------------------------------------

(Gm)Gol bana kar honth bahut paas (C)aaye par

----------3-----3----------1------1-----1-----------------
------3-----3-----3--------1--1-----1-----1---------------
--------3-----3------------2----------2-------------------
----5----------------------3----3-------------------------
--5------------------------3------------------------------
---------------------------1------------------------------

O’ (Gm)Mama,     O’ (F)Mama

----------3-----3-------------------3-----3---------------
------3-----3-----3-------------5-----5-----5-------------
--------3-----3-------------------5-----5-----------------
----5-------------------------5---------------------------
--5-------------------------3-----------------------------
----------------------------------------------------------

(Gm)Unke labh hi dekhte reh gaye (C)chai par

----------3-----3----------1------1-----1-----------------
------3-----3-----3--------1--1-----1-----1---------------
--------3-----3------------2----------2-------------------
----5----------------------3----3-------------------------
--5------------------------3------------------------------
---------------------------1------------------------------

O’ (Gm)Mama,     O’ (F)Mama

----------3-----3-----
------3-----3-----3---
--------3-----3-------   x 2
----5-----------------
--5-------------------
----------------------
        - Gm - 

Strumming starts…

Tak(Gm)raaye honthon (F)se phir (Cm)bhi umeed (F)ho
Koi(Gm) toh iss ta(F)rah aa(Cm)shiq shaheed (F)ho
Koi(Gm) ga(Cm)ya ga(F)ya … (D7)(D7)(D7)
O’ (Gm)Mama, O’ (C)Mama

Use Strumming #2

O’ (Gm)Mama, kanche (Gm)maare
Billi (A#)jaisi, aankhon (C)wali
Ik (D#)myaun si lad(D7)ki
O’ (Gm)Mama, O’ (C)Mama

Unghe (Gm)kabhi, sunghe (Gm)kabhi
Jhanke (A#)kabhi, aaun (C)kabhi
Kabhi (D#)jaaun si lad(D7)ki
O’ (Gm)Mama, O’ (C)Mama …

Get more such songs directly in your Inbox

* indicates required

Related Posts

Bin Tere Reprise - I Hate Luv Storys

Guitar Chords: Bin Tere (Reprise), I Hate Luv Storys [2010]

Tere Bina Jiya Jaye Na

Guitar Chords: Tere Bina Jiya Jaye Na, Ghar [1978]

Guitar Chords: Maahi Ve, Highway [2014]

Guitar Chords: Maahi Ve, Highway [2014]

Happy Diwali 2013

Wishing You A Happy and Delightful Diwali 2013

Zinda Hoon Yaar, Lootera

Guitar Chords: Zinda Hoon Yaar Kaafi Hai, Lootera [2013]

Akshay Kumar Boss

Guitar Chords: Har Kisi Ko Nahi Milta, Boss [2013]